Les accords de guitare de base et comment lire une tablature?

FONTE ZOOM:
Tablatures ou tablature est une façon de montrer la musique de guitare sur l'ordinateur. Il est assez facile à lire, mais vous aurez à lire cet article pour comprendre. Il y aura également quelques symboles pour ceux qui sont difficiles à comprendre. Les accords de base sont également clairement expliquées. Avant de continuer, je voudrais faire une pointe. Si vous voulez apprendre à jouer de la guitare suivre un bon cours vous y arrivez sur le site suivant également gratuitement une guitare au Cours de guitare: Jouer: Demandez dès maintenant!

Les cordes

Ci-dessous vous pouvez voir un contrôle onglet blanc car il est partout sur Internet:

e ------------------------------------------------- --------------
B ------------------------------------------------- ---------------
G ------------------------------------------------- ---------------
D ------------------------------------------------- ---------------
Un ------------------------------------------------- ---------------
E ------------------------------------------------- ---------------

Il représente, comme il se agissait de votre guitare comme vous le regardez à partir de votre point de vue. La chaîne d'épaisseur au fond de l'E, le e supérieure est la corde la plus fine. Si vous prenez votre guitare, il est le plus épais à mince chaîne: EADGB E. Un moyen mnémotechnique pour se rappeler est que: Un singe Die No Bananas Mangez.

Notes de fond

Ici, vous voyez une ligne avec des noix sur elle:

e-----4-------------------------------------------------0-----------------------------------------------
B------------5---------------------0-------------------2------------------------------------------8----
G-------------------------------------------------------2-------------------------------------------------
D-----------------------4--------------------8---------2---------------3-4-----------------------------
A---------------------------------------------8---------0-------------------------------------------------
E---------------------------------------------------------------------------------------------------------

Donc, maintenant nous commençons avec un onglet réel. Vous lisez un onglet toujours de gauche à droite.
Notes normales
La première note que vous rencontrez est le quatrième sur la mince chaîne de E. Donc, vous jouez la corde de E à la 4ème case de votre guitare. La note suivante vous répondez aux 5 sur la chaîne B. Ensuite, vous devez jouer le 4 sur la chaîne de D.
Cordes ouvertes
Et puis vous arrivez à la 0 sur la chaîne B. Un 0 signifie que vous avez à jouer la chaîne ouverte Nulle part mettre le doigt sur, mais juste attraper le.
Écrous doubles
Et puis vous voyez un 8 sur la D et 8 êtes sur la A entre eux. Se il ya plusieurs notes entre eux, alors vous devez jouer simultanément! Alors là, vous avez le D et une grève simultanément la 8ème frette simultanément.
Accords
Ensuite, vous voyez quelques chiffres alignés. Ce est un A-corde. Vous devriez envoyer un e-chaîne et la chaîne A captures ouvert sur, et le B, G et la chaîne de D sur la deuxième case. Dans le même temps vous faites cela en un seul mouvement. Plus accords et comment les jouer, vous trouverez au bas de cet article.
Vitesse
Vous pouvez voir à quelle vitesse les notes doivent succession à l'espace entre les notes. Vous voyez un 3 et un 4, qui doivent être lus en succession rapide sur la chaîne de D. Puis, après un certain temps le dernier huit sur la chaîne B ne doit être joué.

PM, Slide, hammer-on et pull-offs

Ici vous voyez un onglet avec différents symboles.

e ------------------------------- 3P0 ----------------- -------------------
B -------------------- 6H7 ---------------------------- --------------------
G ------------------------------------------------- -------------------
D 9/7 --------------------------------- ------------- --------------------
Un ------------------------------------------------- ------------------
E ----- 6 ------------------------------------------- --------------------
PM ------

En bas, vous voyez maintenant tenez PM. PM signifie Palm Mute dire palm mute.
Le 9/7 est une diapositive de la neuvième à la septième.
La 6H7 représente un marteau sur du sept.
Le 3P0 représente un pull-off de la 3e case.
Comment cela joue est expliqué dans cet article: Hammer-on, pull-offs, des diapositives et palmiers-muets sur votre guitare

Autres symboles

Bend Bend et de sortie

e ------------------------------------------------- ---------------------------------------
B ------ --- 6B8 8R6 -------------------------------------- ---------------------------------
G ------------------------------------------------- ---------------------------------------
D ------------------------------------------------- ---------------------------------------
Un ------------------------------------------------- ---------------------------------------
E ------------------------------------------------- ---------------------------------------

Ici vous avez la chaîne de B sur le 6, puis frappez la chaîne pousser vers le mince chaîne E de sorte qu'il sonne comme un 8. Vous le frappez une fois à faire. Le 8R6 signifie que vous avez la chaîne est poussé encore de frapper et de repousser à nouveau à sa position initiale: normal 6. Aussi ce rythme vous, mais à un moment donné.

Accords?

Un accord visant à établir une série de notes que vous jouez à la fois à travers vos doigts dans certaines boîtes de votre guitare. Vous mettez vos doigts sur les cases et appuyez fermement et tournez les notes que vous avez à frapper dans un mouvement fluide. Si tout va bien, alors vous entendez un dur, beau son. Il ya des dizaines d'accords, mais je ai mis ici les accords les plus communs et fondamentaux.

Je donne entre parenthèses sur quel doigt vous devriez expliquer. Les chaînes sans figure pas être lus. Si un 0 doit être joué ouverte.

Un

e 0 ---------- --------------------
B 2 ---------- --------------
G 2 ---------- -----------
D 2 ---------- --------------
Un ---------- --------------------- 0
E ---------------------------------



B

e 2 -------- ---------------------
B 3 -------- ----------------------
G 3 -------- ---------------------
D -------- ------------------- 3
A -------- 0 -----------------------------
E --------------------------------------

C

e 0 ---------- ----------------------------
B 1 --------------------- ----------
G 0 ---------- ----------------------------
D 2 ---------- -------------------
A 3 ---------- ---------------------
E ---------------------------------------

2 e ---------- --------------
B 3 ---------- ----------------
G 2 ---------- ----------------
D ---------- ------------------------ 0
Un -----------------------------------
E -----------------------------------

E

e ------- 0 -------------------------------
B ------- 0 -------------------------------
G ------- 1 ------------------------
D ------- 2 ------------------------
B 2 ------- ----------------------
E ------- 0 --------------------------------

Fa

e 1 --------- ------------------------
B 1 --------- ------------------------
G 2 --------- ----------------------
D 3 --------- ------------------------
B ------------------------------------------
E ------------------------------------------

Sol

e --------- 3 ----------------------
B 0 ------------------------------ ---------
G ------------------------------ --------- 0
D ------------------------------ --------- 0
A 2 --------- ------------------------
E --------- --- 3 (Medium --------------------

Ce sont les accords de base. Pour plus d'accords que vous pouvez consulter le site suivant: Cliquez ici
VOIR AUSSI:
  1.  
  2.  
  3.  
Sans commentaires

Laisser un commentaire

Code De Sécurité