Tabs for célèbres chansons de guitare

FONTE ZOOM:
Jouer de la guitare est un art ancien qui est pratiquée par un grand nombre de personnes. Peu de gens savent comment kick it finalement bien dans la musique. Bien sûr, une guitare dans les mains quelque chose comme un aimant les femmes, ce est utile, mais il fonctionne encore mieux si vous jouez réellement quelque chose. Par conséquent, voici les plus célèbres intros de guitare sur une rangée d'onglets là. Vous aimez cette chansons vraiment ce? Se il vous plaît cliquer sur le lien sous le titre '' ... Après répété ''

Guitare célèbre Intros

Pouvez-vous jouer un peu de guitare? Que vous souhaitez un peu de support autour d'un feu de camp en vacances? Vous devez bien sûr jouer une chanson connue, où tout le monde peut chanter. Pour vous assurer que cela va être un succès, je mets ici les chansons les plus célèbres dans une rangée, avec les intros des chansons uitgetabt. Ces onglets viennent à partir d'Internet, et sont en outre traitées par moi, donc ils sont encore jouable.

La fumée sur l'eau Intro
e | ----------------- | --------------- | -------------- ----- | ------------------ |
B | ----------------- | --------------- | -------------- ----- | ------------------ |
S | -0 --- 3 --- 5 ---- 0 | --- 3 --- ---- 5.6 | -0 --- 3 --- 5 ---- 3- | --- 0 -------------- |
D | -0 --- 3 --- 5 ---- 0 | --- 3 --- ---- 5.6 | -0 --- 3 --- 5 ---- 3- | --- 0 -------------- |
A | ----------------- | --------------- | -------------- ----- | ------------------ |
E | ----------------- | --------------- | -------------- ----- | ------------------ |

Knocking On Heavens Door Intro
e | -3 --- ------ 2-0 3 ---------------- | ---------------- -0 ------------------------ |
B | -3 ----- ------ --- 3 3 3 3 ----- --- 3 | ---------- ------ 1 1 -------- ---------------- |
S | -0 0 ------- ------ ---------- --- 2 2 | ------ -0 0 0 --- --- ------- 0 --- ------ 0-0 0-- |
D | -0 0 ------------ ----------------- | -0h2 ---------- 2-- ---- 2 -------- ------ 0h2 |
A | --------------------------------- | ------ ------- 3 ------------------------ 3 --- |
E | -3 ------------------------------ | --------------- ---------------------------- |

Smells Like Teen Spirit Un Intro
e | ----------------------- | ----------------------- | --------------------- | ----------------------- |
B | ----------------------- | ----------------------- | --------------------- | ----------------------- |
G | ----------------- 3-3-- | -0 --------------- 6-6- | --- -------------- 3-3- | -0 --------------- 6-6- |
D | -3--3-3-xxxx-3-3-- | -06--6-6-xxxx-6-6- | -3--3-3-xxxx-3-3- | -06 --6-6-xxxx-6-6- |
A | -3--3-3-xxxx-1-1-- | -06--6-6-xxxx-4-4- | -3--3-3-xxxx-1-1- | -06 --6-6-xxxx-4-4- |
E | -1--1-1-xxxx ------- | ------- --4--4-4-xxxx | -1--1-1-xxxx ---- - | --4--4-4-xxxx ------ |

Fou Little Thing Called Love Intro
e | --- --- 2-2-3-2 2-2-2-- |
B | --- --- 3-3-3-3 3-3-3-- |
S | --- --- 2-2-2-2 2-2-2-- |
D | --- --- 0-0-0-0 0-0-0-- |
A | ----------------------- |
E | ----------------------- |

Back in Black Intro
e | ---------------------------------------- | ------- 3-0 ------- ---------------------- |
B | ------------------ ---------------- 3-3-3 | -------- 3-0 ------------ ---------------- |
S | ------------------ ---------- 2-2-2 2-2-- | 2 -------- --------------- 2 ^ `2p0-- |
D | -2 ---------------- ---------- 0-0-0 2-2 | 2 --------- ------------------------------ |
A | -2 ------------------------------- 0-0 --- | 0 ------- ------------------------------- |
E | -0 -------------------------------------- | ------- --------------------------------- |

Une fois que vous avez répété ce intros ...

Vous avez maintenant ainsi ces intros êtes assis un peu dans votre tête. Si vous cherchez à apprendre le reste de la chanson, vous devez regarder pour le titre sur Ultimate Guitar. Il vous pouvez facilement trouver presque toutes les chansons il ya un onglet. Très utile si vous avez entendu quelque chose d'amusant et vous voulez essayer de jouer! Pour le rendre plus facile de trouver quelque chose que vous avez à regarder le nom de l'artiste ci-dessous

VOIR AUSSI:
  1.  
  2.  
  3.  
Sans commentaires

Laisser un commentaire

Code De Sécurité